20 may. 2009

Tabs (Como tocar guitarra)

BUENO AMIGOS SOY NANCHI YO LES VOY A ENSEÑAR ALGUNAS COSAS ESENCIALES PARA TOCAR GUITARRA EMPECEMOS A COMO LEER TABLATURAS


e------------------------------primera cuerda
B-----------------------------segunda cuerda
G-----------------------------tercera cuerda
D-----------------------------cuarta cuerda
A-----------------------------quinta cuerda
E-----------------------------sexta cuerda



En estas líneas estaran unos números que muestran el traste que se tiene que pulsar:

e----1-------------------------
B------------------------------
G-------3----------------------
D----------5-------------------
A------------------------------
E------------------------------

Esto quiere decir que debes comenzar el punteo de guitarra pulsando la cuerda primera(e) en el traste 1, después sigue la cuerda tercera(G) en el traste 3, después sigues la cuerda cuarta(D) en el traste 5.
Si encuentras un 0 en la tablatura te esta indicando que la cuerda hay que tocarla sin pulsarla.



Cuando en la tablatura hay unos números sobre otros, los tienes que tocar al mismo tiempo y cada uno en su traste. Esto se llamaria acorde y se define como: dos o más notas sonando al mismo tiempo.

e--2---------------------------primera cuerda
B--3---------------------------segunda cuerda
G------------------------------tercera cuerda
D------------------------------cuarta cuerda
A------------------------------quinta cuerda
E------------------------------sexta cuerda

En la tablatura de arriba hay dos notas una encima de otra, sin dejar espacio. Esto indica que hay que tocarlas a la vez. La primera cuerda de la guitarra pisada en el traste 2 y la segunda cuerda pisada en el traste 3, presionas las dos cuerdas a la vez en sus trastes correspondientes y las tocas al mismo tiempo.





Partes de una guitarra










BY
NANCHI
-------------
----------
-------
-----
---
--
-

2 comentarios:

Comenta esta publicación....